ISO-10303-21;
HEADER;
FILE_DESCRIPTION(('CATIA V5 STEP Exchange'),'2;1');

FILE_NAME('C:\\Users\\Astroboy\\Desktop\\RIDIX\\work\\RDCO106.125500.stp','2017-03-01T09:17:04+00:00',('none'),('none'),'CATIA Version 5 Release 19 GA (IN-10)','CATIA V5 STEP AP203','none');

FILE_SCHEMA(('CONFIG_CONTROL_DESIGN'));

ENDSEC;
/* file written by CATIA V5R19 */
DATA;
#5=PRODUCT('RDCO106.125500','','COLONNA GUIDA\X2\000D\X0\\X2\000A\X0\NORMATIVE AUTOMOTIVE\X2\000D\X0\\X2\000A\X0\',(#2)) ;
#1=APPLICATION_CONTEXT('configuration controlled 3D design of mechanical parts and assemblies') ;
#14=PRODUCT_DEFINITION('',' ',#6,#3) ;
#16=SECURITY_CLASSIFICATION(' ',' ',#15) ;
#15=SECURITY_CLASSIFICATION_LEVEL('unclassified') ;
#47=CARTESIAN_POINT(' ',(0.,0.,0.)) ;
#51=CARTESIAN_POINT('Line Origine',(0.,0.,0.)) ;
#55=CARTESIAN_POINT('Limit',(0.,0.,0.)) ;
#56=CARTESIAN_POINT('Limit',(20.,0.,0.)) ;
#63=CARTESIAN_POINT('Line Origine',(0.,0.,0.)) ;
#67=CARTESIAN_POINT('Limit',(0.,0.,0.)) ;
#68=CARTESIAN_POINT('Limit',(0.,20.,0.)) ;
#72=CARTESIAN_POINT('Line Origine',(0.,0.,0.)) ;
#76=CARTESIAN_POINT('Limit',(0.,0.,0.)) ;
#77=CARTESIAN_POINT('Limit',(0.,0.,20.)) ;
#81=CARTESIAN_POINT('Punto.4',(0.,0.,0.)) ;
#83=CARTESIAN_POINT('Axis2P3D Location',(5.86041047246E-006,9.6529273379E-006,330.)) ;
#88=CARTESIAN_POINT('Axis2P3D Location',(5.86041047246E-006,9.6529273379E-006,330.)) ;
#92=CARTESIAN_POINT('Vertex',(-4.43441882482,2.42254689949,330.)) ;
#94=CARTESIAN_POINT('Vertex',(4.43443054564,-2.42252759364,330.)) ;
#97=CARTESIAN_POINT('Axis2P3D Location',(5.86041047246E-006,9.6529273379E-006,330.)) ;
#107=CARTESIAN_POINT('Axis2P3D Location',(-62.0625566824,0.,-140.)) ;
#112=CARTESIAN_POINT('Axis2P3D Location',(-2.13162820728E-014,2.6645352591E-015,-140.)) ;
#116=CARTESIAN_POINT('Vertex',(51.2483925814,-27.9971241645,-140.)) ;
#118=CARTESIAN_POINT('Vertex',(-51.2483924538,27.997124398,-140.)) ;
#121=CARTESIAN_POINT('Axis2P3D Location',(-7.1054273576E-015,-4.4408920985E-015,-140.)) ;
#131=CARTESIAN_POINT('Axis2P3D Location',(-7.1054273576E-015,-1.42108547152E-014,-136.)) ;
#136=CARTESIAN_POINT('Axis2P3D Location',(51.2483924538,-27.997124398,-136.)) ;
#140=CARTESIAN_POINT('Vertex',(54.745364835,-29.9075291168,-136.348622971)) ;
#143=CARTESIAN_POINT('Axis2P3D Location',(-7.1054273576E-015,-1.42108547152E-014,-136.348622971)) ;
#147=CARTESIAN_POINT('Vertex',(-54.745364835,29.9075291168,-136.348622971)) ;
#150=CARTESIAN_POINT('Axis2P3D Location',(-51.2483924538,27.997124398,-136.)) ;
#162=CARTESIAN_POINT('Axis2P3D Location',(3.5527136788E-015,1.42108547152E-014,-136.)) ;
#167=CARTESIAN_POINT('Axis2P3D Location',(3.5527136788E-015,1.42108547152E-014,-136.348622971)) ;
#179=CARTESIAN_POINT('Axis2P3D Location',(0.,0.,-140.)) ;
#184=CARTESIAN_POINT('Line Origine',(54.6569638045,-29.8592354137,-137.5)) ;
#188=CARTESIAN_POINT('Vertex',(54.8489101181,-29.9640961628,-135.)) ;
#191=CARTESIAN_POINT('Axis2P3D Location',(0.,0.,-135.)) ;
#195=CARTESIAN_POINT('Vertex',(-54.8489101181,29.9640961628,-135.)) ;
#198=CARTESIAN_POINT('Line Origine',(-54.6569638045,29.8592354137,-137.5)) ;
#210=CARTESIAN_POINT('Axis2P3D Location',(0.,0.,-135.)) ;
#222=CARTESIAN_POINT('Axis2P3D Location',(0.,0.,110.)) ;
#227=CARTESIAN_POINT('Line Origine',(54.8489101181,-29.9640961628,106.5)) ;
#231=CARTESIAN_POINT('Vertex',(54.8489101181,-29.9640961628,-1.42108547152E-013)) ;
#234=CARTESIAN_POINT('Axis2P3D Location',(0.,0.,-1.70530256582E-013)) ;
#238=CARTESIAN_POINT('Vertex',(-54.8489101181,29.9640961628,-1.42108547152E-013)) ;
#241=CARTESIAN_POINT('Line Origine',(-54.8489101181,29.9640961628,106.5)) ;
#253=CARTESIAN_POINT('Axis2P3D Location',(0.,0.,-1.70530256582E-013)) ;
#265=CARTESIAN_POINT('Axis2P3D Location',(0.,0.,8.)) ;
#270=CARTESIAN_POINT('Line Origine',(54.6295144777,-29.8442397781,4.)) ;
#274=CARTESIAN_POINT('Vertex',(54.4101188372,-29.7243833935,8.)) ;
#277=CARTESIAN_POINT('Axis2P3D Location',(0.,0.,8.)) ;
#281=CARTESIAN_POINT('Vertex',(-54.4101188372,29.7243833935,8.)) ;
#284=CARTESIAN_POINT('Line Origine',(-54.6295144777,29.8442397781,4.)) ;
#296=CARTESIAN_POINT('Axis2P3D Location',(0.,0.,8.)) ;
#308=CARTESIAN_POINT('Axis2P3D Location',(-62.5,0.,8.)) ;
#313=CARTESIAN_POINT('Axis2P3D Location',(0.,0.,8.)) ;
#317=CARTESIAN_POINT('Vertex',(54.8489101181,-29.9640961628,8.)) ;
#319=CARTESIAN_POINT('Vertex',(-54.8489101181,29.9640961628,8.)) ;
#322=CARTESIAN_POINT('Axis2P3D Location',(0.,0.,8.)) ;
#336=CARTESIAN_POINT('Axis2P3D Location',(-2.13162820728E-014,-2.13162820728E-014,356.)) ;
#341=CARTESIAN_POINT('Axis2P3D Location',(-49.3335685175,26.951051314,356.)) ;
#345=CARTESIAN_POINT('Vertex',(-52.7242871624,28.8034093521,357.03527618)) ;
#347=CARTESIAN_POINT('Vertex',(-49.3335685175,26.951051314,360.)) ;
#350=CARTESIAN_POINT('Axis2P3D Location',(-2.13162820728E-014,-2.13162820728E-014,360.)) ;
#354=CARTESIAN_POINT('Vertex',(49.3335687777,-26.9510508377,360.)) ;
#357=CARTESIAN_POINT('Axis2P3D Location',(49.3335687777,-26.9510508377,356.)) ;
#361=CARTESIAN_POINT('Vertex',(52.7242871624,-28.8034093521,357.03527618)) ;
#364=CARTESIAN_POINT('Axis2P3D Location',(-2.13162820728E-014,-2.13162820728E-014,357.03527618)) ;
#376=CARTESIAN_POINT('Axis2P3D Location',(-3.5527136788E-015,7.1054273576E-015,356.)) ;
#381=CARTESIAN_POINT('Axis2P3D Location',(-3.5527136788E-015,7.1054273576E-015,360.)) ;
#386=CARTESIAN_POINT('Axis2P3D Location',(-3.5527136788E-015,7.1054273576E-015,357.03527618)) ;
#398=CARTESIAN_POINT('Axis2P3D Location',(1.2576606423E-012,0.,360.)) ;
#407=CARTESIAN_POINT('Axis2P3D Location',(5.86041047201E-006,9.65292733879E-006,360.)) ;
#411=CARTESIAN_POINT('Vertex',(-4.43441882482,2.42254689949,360.)) ;
#413=CARTESIAN_POINT('Vertex',(4.43443054564,-2.42252759364,360.)) ;
#416=CARTESIAN_POINT('Axis2P3D Location',(5.86041047201E-006,9.65292733746E-006,360.)) ;
#426=CARTESIAN_POINT('Axis2P3D Location',(5.86041047246E-006,9.6529273379E-006,359.9)) ;
#431=CARTESIAN_POINT('Line Origine',(-4.43441882482,2.42254689949,345.155000002)) ;
#436=CARTESIAN_POINT('Line Origine',(4.43443054564,-2.42252759364,345.155000002)) ;
#455=CARTESIAN_POINT('Line Origine',(54.8489101181,-29.9640961628,106.5)) ;
#459=CARTESIAN_POINT('Vertex',(54.8489101181,-29.9640961628,347.47339001)) ;
#462=CARTESIAN_POINT('Line Origine',(-54.8489101181,29.9640961628,106.5)) ;
#466=CARTESIAN_POINT('Vertex',(-54.8489101181,29.9640961628,347.47339001)) ;
#469=CARTESIAN_POINT('Axis2P3D Location',(0.,0.,347.47339001)) ;
#481=CARTESIAN_POINT('Axis2P3D Location',(0.,0.,347.47339001)) ;
#493=CARTESIAN_POINT('Axis2P3D Location',(0.,0.,360.)) ;
#498=CARTESIAN_POINT('Line Origine',(-53.4380248856,29.1933260474,354.)) ;
#502=CARTESIAN_POINT('Vertex',(-54.7292985155,29.8987520464,348.50866619)) ;
#505=CARTESIAN_POINT('Line Origine',(53.4380248856,-29.1933260474,354.)) ;
#509=CARTESIAN_POINT('Vertex',(54.7292985155,-29.8987520464,348.50866619)) ;
#512=CARTESIAN_POINT('Axis2P3D Location',(0.,0.,348.50866619)) ;
#524=CARTESIAN_POINT('Axis2P3D Location',(0.,0.,348.50866619)) ;
#536=CARTESIAN_POINT('Axis2P3D Location',(0.,-3.5527136788E-015,347.47339001)) ;
#541=CARTESIAN_POINT('Axis2P3D Location',(51.3385798706,-28.0463940083,347.47339001)) ;
#546=CARTESIAN_POINT('Axis2P3D Location',(-51.3385798706,28.0463940083,347.47339001)) ;
#558=CARTESIAN_POINT('Axis2P3D Location',(3.5527136788E-015,-7.1054273576E-015,347.47339001)) ;
#52=DIRECTION('Vector Direction',(1.,0.,0.)) ;
#64=DIRECTION('Vector Direction',(0.,1.,0.)) ;
#73=DIRECTION('Vector Direction',(0.,0.,1.)) ;
#84=DIRECTION('Axis2P3D Direction',(0.,0.,-1.)) ;
#85=DIRECTION('Axis2P3D XDirection',(1.,0.,0.)) ;
#89=DIRECTION('Axis2P3D Direction',(0.,0.,-1.)) ;
#98=DIRECTION('Axis2P3D Direction',(0.,0.,-1.)) ;
#108=DIRECTION('Axis2P3D Direction',(0.,0.,-1.)) ;
#109=DIRECTION('Axis2P3D XDirection',(1.,0.,0.)) ;
#113=DIRECTION('Axis2P3D Direction',(0.,0.,-1.)) ;
#122=DIRECTION('Axis2P3D Direction',(0.,0.,-1.)) ;
#132=DIRECTION('Axis2P3D Direction',(0.,0.,-1.)) ;
#133=DIRECTION('Axis2P3D XDirection',(0.967401725048,-0.253246722336,0.)) ;
#137=DIRECTION('Axis2P3D Direction',(0.479425538604,0.87758256189,0.)) ;
#144=DIRECTION('Axis2P3D Direction',(0.,0.,-1.)) ;
#151=DIRECTION('Axis2P3D Direction',(-0.479425538604,-0.87758256189,-0.)) ;
#163=DIRECTION('Axis2P3D Direction',(-0.,0.,-1.)) ;
#164=DIRECTION('Axis2P3D XDirection',(-0.87758256189,0.479425538604,0.)) ;
#168=DIRECTION('Axis2P3D Direction',(-0.,0.,-1.)) ;
#180=DIRECTION('Axis2P3D Direction',(-0.,-0.,1.)) ;
#181=DIRECTION('Axis2P3D XDirection',(-0.87758256189,0.479425538604,0.)) ;
#185=DIRECTION('Vector Direction',(0.0764863600039,-0.0417846889092,0.996194698092)) ;
#192=DIRECTION('Axis2P3D Direction',(-0.,0.,1.)) ;
#199=DIRECTION('Vector Direction',(-0.0764863600039,0.0417846889092,0.996194698092)) ;
#211=DIRECTION('Axis2P3D Direction',(-0.,0.,1.)) ;
#223=DIRECTION('Axis2P3D Direction',(0.,0.,-1.)) ;
#224=DIRECTION('Axis2P3D XDirection',(-0.87758256189,0.479425538604,-0.)) ;
#228=DIRECTION('Vector Direction',(0.,0.,-1.)) ;
#235=DIRECTION('Axis2P3D Direction',(0.,0.,-1.)) ;
#242=DIRECTION('Vector Direction',(0.,0.,-1.)) ;
#254=DIRECTION('Axis2P3D Direction',(0.,0.,-1.)) ;
#266=DIRECTION('Axis2P3D Direction',(0.,0.,-1.)) ;
#267=DIRECTION('Axis2P3D XDirection',(-0.87758256189,0.479425538604,0.)) ;
#271=DIRECTION('Vector Direction',(0.0547420961704,-0.0299057434372,-0.998052578483)) ;
#278=DIRECTION('Axis2P3D Direction',(0.,0.,-1.)) ;
#285=DIRECTION('Vector Direction',(-0.0547420961704,0.0299057434372,-0.998052578483)) ;
#297=DIRECTION('Axis2P3D Direction',(0.,0.,-1.)) ;
#309=DIRECTION('Axis2P3D Direction',(0.,0.,-1.)) ;
#310=DIRECTION('Axis2P3D XDirection',(1.,0.,0.)) ;
#314=DIRECTION('Axis2P3D Direction',(0.,0.,-1.)) ;
#323=DIRECTION('Axis2P3D Direction',(0.,0.,-1.)) ;
#337=DIRECTION('Axis2P3D Direction',(-0.,0.,-1.)) ;
#338=DIRECTION('Axis2P3D XDirection',(-0.87758256189,0.479425538604,0.)) ;
#342=DIRECTION('Axis2P3D Direction',(-0.479425538604,-0.87758256189,0.)) ;
#351=DIRECTION('Axis2P3D Direction',(-0.,0.,-1.)) ;
#358=DIRECTION('Axis2P3D Direction',(0.479425530132,0.877582566519,0.)) ;
#365=DIRECTION('Axis2P3D Direction',(-0.,0.,-1.)) ;
#377=DIRECTION('Axis2P3D Direction',(0.,0.,-1.)) ;
#378=DIRECTION('Axis2P3D XDirection',(0.960285704251,-0.279018576822,0.)) ;
#382=DIRECTION('Axis2P3D Direction',(0.,0.,-1.)) ;
#387=DIRECTION('Axis2P3D Direction',(0.,0.,-1.)) ;
#399=DIRECTION('Axis2P3D Direction',(0.,0.,-1.)) ;
#400=DIRECTION('Axis2P3D XDirection',(1.,0.,0.)) ;
#408=DIRECTION('Axis2P3D Direction',(0.,0.,-1.)) ;
#417=DIRECTION('Axis2P3D Direction',(0.,0.,-1.)) ;
#427=DIRECTION('Axis2P3D Direction',(0.,-0.,-1.)) ;
#428=DIRECTION('Axis2P3D XDirection',(0.87758256189,-0.479425538604,0.)) ;
#432=DIRECTION('Vector Direction',(0.,0.,-1.)) ;
#437=DIRECTION('Vector Direction',(0.,0.,-1.)) ;
#456=DIRECTION('Vector Direction',(0.,0.,-1.)) ;
#463=DIRECTION('Vector Direction',(0.,0.,-1.)) ;
#470=DIRECTION('Axis2P3D Direction',(0.,0.,-1.)) ;
#482=DIRECTION('Axis2P3D Direction',(0.,0.,-1.)) ;
#494=DIRECTION('Axis2P3D Direction',(0.,0.,-1.)) ;
#495=DIRECTION('Axis2P3D XDirection',(-0.87758256189,0.479425538604,0.)) ;
#499=DIRECTION('Vector Direction',(-0.227135080667,0.124084460099,-0.965925826289)) ;
#506=DIRECTION('Vector Direction',(0.227135080667,-0.124084460099,-0.965925826289)) ;
#513=DIRECTION('Axis2P3D Direction',(0.,0.,-1.)) ;
#525=DIRECTION('Axis2P3D Direction',(0.,0.,-1.)) ;
#537=DIRECTION('Axis2P3D Direction',(0.,-0.,1.)) ;
#538=DIRECTION('Axis2P3D XDirection',(-0.87758256189,0.479425538604,0.)) ;
#542=DIRECTION('Axis2P3D Direction',(-0.479425538604,-0.87758256189,0.)) ;
#547=DIRECTION('Axis2P3D Direction',(0.479425538604,0.87758256189,0.)) ;
#559=DIRECTION('Axis2P3D Direction',(-0.,0.,-1.)) ;
#560=DIRECTION('Axis2P3D XDirection',(-0.87758256189,0.479425538604,0.)) ;
#48=AXIS2_PLACEMENT_3D(' ',#47,$,$) ;
#86=AXIS2_PLACEMENT_3D('Plane Axis2P3D',#83,#84,#85) ;
#90=AXIS2_PLACEMENT_3D('Circle Axis2P3D',#88,#89,$) ;
#99=AXIS2_PLACEMENT_3D('Circle Axis2P3D',#97,#98,$) ;
#110=AXIS2_PLACEMENT_3D('Plane Axis2P3D',#107,#108,#109) ;
#114=AXIS2_PLACEMENT_3D('Circle Axis2P3D',#112,#113,$) ;
#123=AXIS2_PLACEMENT_3D('Circle Axis2P3D',#121,#122,$) ;
#134=AXIS2_PLACEMENT_3D('Torus Axis2P3D',#131,#132,#133) ;
#138=AXIS2_PLACEMENT_3D('Circle Axis2P3D',#136,#137,$) ;
#145=AXIS2_PLACEMENT_3D('Circle Axis2P3D',#143,#144,$) ;
#152=AXIS2_PLACEMENT_3D('Circle Axis2P3D',#150,#151,$) ;
#165=AXIS2_PLACEMENT_3D('Torus Axis2P3D',#162,#163,#164) ;
#169=AXIS2_PLACEMENT_3D('Circle Axis2P3D',#167,#168,$) ;
#182=AXIS2_PLACEMENT_3D('Cone Axis2P3D',#179,#180,#181) ;
#193=AXIS2_PLACEMENT_3D('Circle Axis2P3D',#191,#192,$) ;
#212=AXIS2_PLACEMENT_3D('Circle Axis2P3D',#210,#211,$) ;
#225=AXIS2_PLACEMENT_3D('Cylinder Axis2P3D',#222,#223,#224) ;
#236=AXIS2_PLACEMENT_3D('Circle Axis2P3D',#234,#235,$) ;
#255=AXIS2_PLACEMENT_3D('Circle Axis2P3D',#253,#254,$) ;
#268=AXIS2_PLACEMENT_3D('Cone Axis2P3D',#265,#266,#267) ;
#279=AXIS2_PLACEMENT_3D('Circle Axis2P3D',#277,#278,$) ;
#298=AXIS2_PLACEMENT_3D('Circle Axis2P3D',#296,#297,$) ;
#311=AXIS2_PLACEMENT_3D('Plane Axis2P3D',#308,#309,#310) ;
#315=AXIS2_PLACEMENT_3D('Circle Axis2P3D',#313,#314,$) ;
#324=AXIS2_PLACEMENT_3D('Circle Axis2P3D',#322,#323,$) ;
#339=AXIS2_PLACEMENT_3D('Torus Axis2P3D',#336,#337,#338) ;
#343=AXIS2_PLACEMENT_3D('Circle Axis2P3D',#341,#342,$) ;
#352=AXIS2_PLACEMENT_3D('Circle Axis2P3D',#350,#351,$) ;
#359=AXIS2_PLACEMENT_3D('Circle Axis2P3D',#357,#358,$) ;
#366=AXIS2_PLACEMENT_3D('Circle Axis2P3D',#364,#365,$) ;
#379=AXIS2_PLACEMENT_3D('Torus Axis2P3D',#376,#377,#378) ;
#383=AXIS2_PLACEMENT_3D('Circle Axis2P3D',#381,#382,$) ;
#388=AXIS2_PLACEMENT_3D('Circle Axis2P3D',#386,#387,$) ;
#401=AXIS2_PLACEMENT_3D('Plane Axis2P3D',#398,#399,#400) ;
#409=AXIS2_PLACEMENT_3D('Circle Axis2P3D',#407,#408,$) ;
#418=AXIS2_PLACEMENT_3D('Circle Axis2P3D',#416,#417,$) ;
#429=AXIS2_PLACEMENT_3D('Cylinder Axis2P3D',#426,#427,#428) ;
#471=AXIS2_PLACEMENT_3D('Circle Axis2P3D',#469,#470,$) ;
#483=AXIS2_PLACEMENT_3D('Circle Axis2P3D',#481,#482,$) ;
#496=AXIS2_PLACEMENT_3D('Cone Axis2P3D',#493,#494,#495) ;
#514=AXIS2_PLACEMENT_3D('Circle Axis2P3D',#512,#513,$) ;
#526=AXIS2_PLACEMENT_3D('Circle Axis2P3D',#524,#525,$) ;
#539=AXIS2_PLACEMENT_3D('Torus Axis2P3D',#536,#537,#538) ;
#543=AXIS2_PLACEMENT_3D('Circle Axis2P3D',#541,#542,$) ;
#548=AXIS2_PLACEMENT_3D('Circle Axis2P3D',#546,#547,$) ;
#561=AXIS2_PLACEMENT_3D('Torus Axis2P3D',#558,#559,#560) ;
#40=PRODUCT_DEFINITION_SHAPE(' ',' ',#14) ;
#59=COMPOSITE_CURVE('Linea.1',(#58),.U.) ;
#71=COMPOSITE_CURVE('Linea.2',(#70),.U.) ;
#80=COMPOSITE_CURVE('Linea.3',(#79),.U.) ;
#58=COMPOSITE_CURVE_SEGMENT(.DISCONTINUOUS.,.T.,#57) ;
#70=COMPOSITE_CURVE_SEGMENT(.DISCONTINUOUS.,.T.,#69) ;
#79=COMPOSITE_CURVE_SEGMENT(.DISCONTINUOUS.,.T.,#78) ;
#31=APPROVAL_PERSON_ORGANIZATION(#25,#21,#19) ;
#25=PERSON_AND_ORGANIZATION(#22,#23) ;
#22=PERSON(' ',' ',' ',$,$,$) ;
#23=ORGANIZATION(' ',' ',' ') ;
#21=APPROVAL(#20,' ') ;
#20=APPROVAL_STATUS('not_yet_approved') ;
#19=APPROVAL_ROLE('APPROVER') ;
#13=DATE_AND_TIME(#11,#12) ;
#12=LOCAL_TIME(10,17,3.,#10) ;
#10=COORDINATED_UNIVERSAL_TIME_OFFSET(0,0,.AHEAD.) ;
#103=ORIENTED_EDGE('',*,*,#96,.F.) ;
#104=ORIENTED_EDGE('',*,*,#101,.F.) ;
#127=ORIENTED_EDGE('',*,*,#120,.T.) ;
#128=ORIENTED_EDGE('',*,*,#125,.T.) ;
#156=ORIENTED_EDGE('',*,*,#142,.T.) ;
#157=ORIENTED_EDGE('',*,*,#149,.T.) ;
#158=ORIENTED_EDGE('',*,*,#154,.F.) ;
#159=ORIENTED_EDGE('',*,*,#120,.F.) ;
#173=ORIENTED_EDGE('',*,*,#154,.T.) ;
#174=ORIENTED_EDGE('',*,*,#171,.T.) ;
#175=ORIENTED_EDGE('',*,*,#142,.F.) ;
#176=ORIENTED_EDGE('',*,*,#125,.F.) ;
#204=ORIENTED_EDGE('',*,*,#190,.T.) ;
#205=ORIENTED_EDGE('',*,*,#197,.T.) ;
#206=ORIENTED_EDGE('',*,*,#202,.F.) ;
#207=ORIENTED_EDGE('',*,*,#149,.F.) ;
#216=ORIENTED_EDGE('',*,*,#202,.T.) ;
#217=ORIENTED_EDGE('',*,*,#214,.T.) ;
#218=ORIENTED_EDGE('',*,*,#190,.F.) ;
#219=ORIENTED_EDGE('',*,*,#171,.F.) ;
#247=ORIENTED_EDGE('',*,*,#197,.F.) ;
#248=ORIENTED_EDGE('',*,*,#233,.T.) ;
#249=ORIENTED_EDGE('',*,*,#240,.T.) ;
#250=ORIENTED_EDGE('',*,*,#245,.F.) ;
#259=ORIENTED_EDGE('',*,*,#214,.F.) ;
#260=ORIENTED_EDGE('',*,*,#245,.T.) ;
#261=ORIENTED_EDGE('',*,*,#257,.T.) ;
#262=ORIENTED_EDGE('',*,*,#233,.F.) ;
#290=ORIENTED_EDGE('',*,*,#240,.F.) ;
#291=ORIENTED_EDGE('',*,*,#276,.T.) ;
#292=ORIENTED_EDGE('',*,*,#283,.T.) ;
#293=ORIENTED_EDGE('',*,*,#288,.F.) ;
#302=ORIENTED_EDGE('',*,*,#257,.F.) ;
#303=ORIENTED_EDGE('',*,*,#288,.T.) ;
#304=ORIENTED_EDGE('',*,*,#300,.T.) ;
#305=ORIENTED_EDGE('',*,*,#276,.F.) ;
#328=ORIENTED_EDGE('',*,*,#321,.T.) ;
#329=ORIENTED_EDGE('',*,*,#326,.T.) ;
#332=ORIENTED_EDGE('',*,*,#300,.F.) ;
#333=ORIENTED_EDGE('',*,*,#283,.F.) ;
#370=ORIENTED_EDGE('',*,*,#349,.T.) ;
#371=ORIENTED_EDGE('',*,*,#356,.T.) ;
#372=ORIENTED_EDGE('',*,*,#363,.F.) ;
#373=ORIENTED_EDGE('',*,*,#368,.F.) ;
#392=ORIENTED_EDGE('',*,*,#363,.T.) ;
#393=ORIENTED_EDGE('',*,*,#385,.T.) ;
#394=ORIENTED_EDGE('',*,*,#349,.F.) ;
#395=ORIENTED_EDGE('',*,*,#390,.F.) ;
#404=ORIENTED_EDGE('',*,*,#356,.F.) ;
#405=ORIENTED_EDGE('',*,*,#385,.F.) ;
#422=ORIENTED_EDGE('',*,*,#415,.T.) ;
#423=ORIENTED_EDGE('',*,*,#420,.T.) ;
#442=ORIENTED_EDGE('',*,*,#415,.F.) ;
#443=ORIENTED_EDGE('',*,*,#435,.F.) ;
#444=ORIENTED_EDGE('',*,*,#96,.T.) ;
#445=ORIENTED_EDGE('',*,*,#440,.T.) ;
#449=ORIENTED_EDGE('',*,*,#420,.F.) ;
#450=ORIENTED_EDGE('',*,*,#440,.F.) ;
#451=ORIENTED_EDGE('',*,*,#101,.T.) ;
#452=ORIENTED_EDGE('',*,*,#435,.T.) ;
#475=ORIENTED_EDGE('',*,*,#461,.F.) ;
#476=ORIENTED_EDGE('',*,*,#326,.F.) ;
#477=ORIENTED_EDGE('',*,*,#468,.T.) ;
#478=ORIENTED_EDGE('',*,*,#473,.T.) ;
#487=ORIENTED_EDGE('',*,*,#468,.F.) ;
#488=ORIENTED_EDGE('',*,*,#321,.F.) ;
#489=ORIENTED_EDGE('',*,*,#461,.T.) ;
#490=ORIENTED_EDGE('',*,*,#485,.T.) ;
#518=ORIENTED_EDGE('',*,*,#504,.T.) ;
#519=ORIENTED_EDGE('',*,*,#368,.T.) ;
#520=ORIENTED_EDGE('',*,*,#511,.F.) ;
#521=ORIENTED_EDGE('',*,*,#516,.F.) ;
#530=ORIENTED_EDGE('',*,*,#511,.T.) ;
#531=ORIENTED_EDGE('',*,*,#390,.T.) ;
#532=ORIENTED_EDGE('',*,*,#504,.F.) ;
#533=ORIENTED_EDGE('',*,*,#528,.F.) ;
#552=ORIENTED_EDGE('',*,*,#545,.T.) ;
#553=ORIENTED_EDGE('',*,*,#528,.T.) ;
#554=ORIENTED_EDGE('',*,*,#550,.F.) ;
#555=ORIENTED_EDGE('',*,*,#485,.F.) ;
#564=ORIENTED_EDGE('',*,*,#550,.T.) ;
#565=ORIENTED_EDGE('',*,*,#516,.T.) ;
#566=ORIENTED_EDGE('',*,*,#545,.F.) ;
#567=ORIENTED_EDGE('',*,*,#473,.F.) ;
#334=FACE_BOUND('',#331,.T.) ;
#424=FACE_BOUND('',#421,.T.) ;
#82=CLOSED_SHELL('Closed Shell',(#106,#130,#161,#178,#209,#221,#252,#264,#295,#307,#335,#375,#397,#425,#447,#454,#480,#492,#523,#535,#557,#569)) ;
#53=VECTOR('Line Direction',#52,1.) ;
#65=VECTOR('Line Direction',#64,1.) ;
#74=VECTOR('Line Direction',#73,1.) ;
#186=VECTOR('Line Direction',#185,1.) ;
#200=VECTOR('Line Direction',#199,1.) ;
#229=VECTOR('Line Direction',#228,1.) ;
#243=VECTOR('Line Direction',#242,1.) ;
#272=VECTOR('Line Direction',#271,1.) ;
#286=VECTOR('Line Direction',#285,1.) ;
#433=VECTOR('Line Direction',#432,1.) ;
#438=VECTOR('Line Direction',#437,1.) ;
#457=VECTOR('Line Direction',#456,1.) ;
#464=VECTOR('Line Direction',#463,1.) ;
#500=VECTOR('Line Direction',#499,1.) ;
#507=VECTOR('Line Direction',#506,1.) ;
#571=ADVANCED_BREP_SHAPE_REPRESENTATION('NONE',(#570),#46) ;
#49=SHAPE_REPRESENTATION(' ',(#48),#46) ;
#106=ADVANCED_FACE('PartBody',(#105),#87,.F.) ;
#130=ADVANCED_FACE('PartBody',(#129),#111,.T.) ;
#161=ADVANCED_FACE('PartBody',(#160),#135,.T.) ;
#178=ADVANCED_FACE('PartBody',(#177),#166,.T.) ;
#209=ADVANCED_FACE('PartBody',(#208),#183,.T.) ;
#221=ADVANCED_FACE('PartBody',(#220),#183,.T.) ;
#252=ADVANCED_FACE('PartBody',(#251),#226,.T.) ;
#264=ADVANCED_FACE('PartBody',(#263),#226,.T.) ;
#295=ADVANCED_FACE('PartBody',(#294),#269,.T.) ;
#307=ADVANCED_FACE('PartBody',(#306),#269,.T.) ;
#335=ADVANCED_FACE('PartBody',(#330,#334),#312,.T.) ;
#375=ADVANCED_FACE('PartBody',(#374),#340,.T.) ;
#397=ADVANCED_FACE('PartBody',(#396),#380,.T.) ;
#425=ADVANCED_FACE('PartBody',(#406,#424),#402,.F.) ;
#447=ADVANCED_FACE('PartBody',(#446),#430,.F.) ;
#454=ADVANCED_FACE('PartBody',(#453),#430,.F.) ;
#480=ADVANCED_FACE('PartBody',(#479),#226,.T.) ;
#492=ADVANCED_FACE('PartBody',(#491),#226,.T.) ;
#523=ADVANCED_FACE('PartBody',(#522),#497,.T.) ;
#535=ADVANCED_FACE('PartBody',(#534),#497,.T.) ;
#557=ADVANCED_FACE('PartBody',(#556),#540,.T.) ;
#569=ADVANCED_FACE('PartBody',(#568),#562,.T.) ;
#4=APPLICATION_PROTOCOL_DEFINITION('international standard','config_control_design',1994,#1) ;
#32=APPROVAL_DATE_TIME(#13,#21) ;
#570=MANIFOLD_SOLID_BREP('PartBody',#82) ;
#11=CALENDAR_DATE(2017,1,3) ;
#30=CC_DESIGN_APPROVAL(#21,(#16,#6,#14)) ;
#18=CC_DESIGN_DATE_AND_TIME_ASSIGNMENT(#13,#17,(#16)) ;
#29=CC_DESIGN_DATE_AND_TIME_ASSIGNMENT(#13,#28,(#14)) ;
#17=DATE_TIME_ROLE('classification_date') ;
#28=DATE_TIME_ROLE('creation_date') ;
#27=CC_DESIGN_PERSON_AND_ORGANIZATION_ASSIGNMENT(#25,#26,(#16)) ;
#33=CC_DESIGN_PERSON_AND_ORGANIZATION_ASSIGNMENT(#25,#34,(#6)) ;
#35=CC_DESIGN_PERSON_AND_ORGANIZATION_ASSIGNMENT(#25,#36,(#6,#14)) ;
#37=CC_DESIGN_PERSON_AND_ORGANIZATION_ASSIGNMENT(#25,#38,(#5)) ;
#26=PERSON_AND_ORGANIZATION_ROLE('classification_officer') ;
#34=PERSON_AND_ORGANIZATION_ROLE('design_supplier') ;
#36=PERSON_AND_ORGANIZATION_ROLE('creator') ;
#38=PERSON_AND_ORGANIZATION_ROLE('design_owner') ;
#39=CC_DESIGN_SECURITY_CLASSIFICATION(#16,(#6)) ;
#91=CIRCLE('generated circle',#90,5.053) ;
#100=CIRCLE('generated circle',#99,5.053) ;
#115=CIRCLE('generated circle',#114,58.3972319863) ;
#124=CIRCLE('generated circle',#123,58.3972319863) ;
#139=CIRCLE('generated circle',#138,4.) ;
#146=CIRCLE('generated circle',#145,62.3820107787) ;
#153=CIRCLE('generated circle',#152,4.) ;
#170=CIRCLE('generated circle',#169,62.3820107787) ;
#194=CIRCLE('generated circle',#193,62.5) ;
#213=CIRCLE('generated circle',#212,62.5) ;
#237=CIRCLE('generated circle',#236,62.5) ;
#256=CIRCLE('generated circle',#255,62.5) ;
#280=CIRCLE('generated circle',#279,62.) ;
#299=CIRCLE('generated circle',#298,62.) ;
#316=CIRCLE('generated circle',#315,62.5) ;
#325=CIRCLE('generated circle',#324,62.5) ;
#344=CIRCLE('generated circle',#343,4.) ;
#353=CIRCLE('generated circle',#352,56.2153017389) ;
#360=CIRCLE('generated circle',#359,4.) ;
#367=CIRCLE('generated circle',#366,60.0790050441) ;
#384=CIRCLE('generated circle',#383,56.2153017389) ;
#389=CIRCLE('generated circle',#388,60.0790050441) ;
#410=CIRCLE('generated circle',#409,5.053) ;
#419=CIRCLE('generated circle',#418,5.053) ;
#472=CIRCLE('generated circle',#471,62.5) ;
#484=CIRCLE('generated circle',#483,62.5) ;
#515=CIRCLE('generated circle',#514,62.3637033052) ;
#527=CIRCLE('generated circle',#526,62.3637033052) ;
#544=CIRCLE('generated circle',#543,4.) ;
#549=CIRCLE('generated circle',#548,4.) ;
#183=CONICAL_SURFACE('Cone',#182,62.0625566824,0.0872664625997) ;
#269=CONICAL_SURFACE('Cone',#268,62.,0.062418809996) ;
#497=CONICAL_SURFACE('Cone',#496,59.2846096908,0.261799387799) ;
#62=SHAPE_REPRESENTATION_RELATIONSHIP(' ',' ',#49,#60) ;
#572=SHAPE_REPRESENTATION_RELATIONSHIP(' ',' ',#49,#571) ;
#226=CYLINDRICAL_SURFACE('generated cylinder',#225,62.5) ;
#430=CYLINDRICAL_SURFACE('generated cylinder',#429,5.053) ;
#135=TOROIDAL_SURFACE('homeo Torus',#134,58.3972319863,4.) ;
#166=TOROIDAL_SURFACE('homeo Torus',#165,58.3972319863,4.) ;
#340=TOROIDAL_SURFACE('homeo Torus',#339,56.2153017389,4.) ;
#380=TOROIDAL_SURFACE('homeo Torus',#379,56.2153017389,4.) ;
#540=TOROIDAL_SURFACE('homeo Torus',#539,58.5,4.) ;
#562=TOROIDAL_SURFACE('homeo Torus',#561,58.5,4.) ;
#3=DESIGN_CONTEXT(' ',#1,'design') ;
#96=EDGE_CURVE('',#93,#95,#91,.T.) ;
#101=EDGE_CURVE('',#95,#93,#100,.T.) ;
#120=EDGE_CURVE('',#117,#119,#115,.T.) ;
#125=EDGE_CURVE('',#119,#117,#124,.T.) ;
#142=EDGE_CURVE('',#117,#141,#139,.F.) ;
#149=EDGE_CURVE('',#141,#148,#146,.T.) ;
#154=EDGE_CURVE('',#119,#148,#153,.F.) ;
#171=EDGE_CURVE('',#148,#141,#170,.T.) ;
#190=EDGE_CURVE('',#141,#189,#187,.T.) ;
#197=EDGE_CURVE('',#189,#196,#194,.F.) ;
#202=EDGE_CURVE('',#148,#196,#201,.T.) ;
#214=EDGE_CURVE('',#196,#189,#213,.F.) ;
#233=EDGE_CURVE('',#189,#232,#230,.F.) ;
#240=EDGE_CURVE('',#232,#239,#237,.T.) ;
#245=EDGE_CURVE('',#196,#239,#244,.F.) ;
#257=EDGE_CURVE('',#239,#232,#256,.T.) ;
#276=EDGE_CURVE('',#232,#275,#273,.F.) ;
#283=EDGE_CURVE('',#275,#282,#280,.T.) ;
#288=EDGE_CURVE('',#239,#282,#287,.F.) ;
#300=EDGE_CURVE('',#282,#275,#299,.T.) ;
#321=EDGE_CURVE('',#318,#320,#316,.T.) ;
#326=EDGE_CURVE('',#320,#318,#325,.T.) ;
#349=EDGE_CURVE('',#346,#348,#344,.F.) ;
#356=EDGE_CURVE('',#348,#355,#353,.T.) ;
#363=EDGE_CURVE('',#362,#355,#360,.F.) ;
#368=EDGE_CURVE('',#346,#362,#367,.T.) ;
#385=EDGE_CURVE('',#355,#348,#384,.T.) ;
#390=EDGE_CURVE('',#362,#346,#389,.T.) ;
#415=EDGE_CURVE('',#412,#414,#410,.T.) ;
#420=EDGE_CURVE('',#414,#412,#419,.T.) ;
#435=EDGE_CURVE('',#93,#412,#434,.F.) ;
#440=EDGE_CURVE('',#95,#414,#439,.F.) ;
#461=EDGE_CURVE('',#318,#460,#458,.F.) ;
#468=EDGE_CURVE('',#320,#467,#465,.F.) ;
#473=EDGE_CURVE('',#467,#460,#472,.T.) ;
#485=EDGE_CURVE('',#460,#467,#484,.T.) ;
#504=EDGE_CURVE('',#503,#346,#501,.F.) ;
#511=EDGE_CURVE('',#510,#362,#508,.F.) ;
#516=EDGE_CURVE('',#503,#510,#515,.T.) ;
#528=EDGE_CURVE('',#510,#503,#527,.T.) ;
#545=EDGE_CURVE('',#460,#510,#544,.T.) ;
#550=EDGE_CURVE('',#467,#503,#549,.T.) ;
#102=EDGE_LOOP('',(#103,#104)) ;
#126=EDGE_LOOP('',(#127,#128)) ;
#155=EDGE_LOOP('',(#156,#157,#158,#159)) ;
#172=EDGE_LOOP('',(#173,#174,#175,#176)) ;
#203=EDGE_LOOP('',(#204,#205,#206,#207)) ;
#215=EDGE_LOOP('',(#216,#217,#218,#219)) ;
#246=EDGE_LOOP('',(#247,#248,#249,#250)) ;
#258=EDGE_LOOP('',(#259,#260,#261,#262)) ;
#289=EDGE_LOOP('',(#290,#291,#292,#293)) ;
#301=EDGE_LOOP('',(#302,#303,#304,#305)) ;
#327=EDGE_LOOP('',(#328,#329)) ;
#331=EDGE_LOOP('',(#332,#333)) ;
#369=EDGE_LOOP('',(#370,#371,#372,#373)) ;
#391=EDGE_LOOP('',(#392,#393,#394,#395)) ;
#403=EDGE_LOOP('',(#404,#405)) ;
#421=EDGE_LOOP('',(#422,#423)) ;
#441=EDGE_LOOP('',(#442,#443,#444,#445)) ;
#448=EDGE_LOOP('',(#449,#450,#451,#452)) ;
#474=EDGE_LOOP('',(#475,#476,#477,#478)) ;
#486=EDGE_LOOP('',(#487,#488,#489,#490)) ;
#517=EDGE_LOOP('',(#518,#519,#520,#521)) ;
#529=EDGE_LOOP('',(#530,#531,#532,#533)) ;
#551=EDGE_LOOP('',(#552,#553,#554,#555)) ;
#563=EDGE_LOOP('',(#564,#565,#566,#567)) ;
#105=FACE_OUTER_BOUND('',#102,.T.) ;
#129=FACE_OUTER_BOUND('',#126,.T.) ;
#160=FACE_OUTER_BOUND('',#155,.T.) ;
#177=FACE_OUTER_BOUND('',#172,.T.) ;
#208=FACE_OUTER_BOUND('',#203,.T.) ;
#220=FACE_OUTER_BOUND('',#215,.T.) ;
#251=FACE_OUTER_BOUND('',#246,.T.) ;
#263=FACE_OUTER_BOUND('',#258,.T.) ;
#294=FACE_OUTER_BOUND('',#289,.T.) ;
#306=FACE_OUTER_BOUND('',#301,.T.) ;
#330=FACE_OUTER_BOUND('',#327,.T.) ;
#374=FACE_OUTER_BOUND('',#369,.T.) ;
#396=FACE_OUTER_BOUND('',#391,.T.) ;
#406=FACE_OUTER_BOUND('',#403,.T.) ;
#446=FACE_OUTER_BOUND('',#441,.T.) ;
#453=FACE_OUTER_BOUND('',#448,.T.) ;
#479=FACE_OUTER_BOUND('',#474,.T.) ;
#491=FACE_OUTER_BOUND('',#486,.T.) ;
#522=FACE_OUTER_BOUND('',#517,.T.) ;
#534=FACE_OUTER_BOUND('',#529,.T.) ;
#556=FACE_OUTER_BOUND('',#551,.T.) ;
#568=FACE_OUTER_BOUND('',#563,.T.) ;
#61=GEOMETRIC_SET('NONE',(#59,#71,#80,#81)) ;
#60=GEOMETRICALLY_BOUNDED_SURFACE_SHAPE_REPRESENTATION('NONE',(#61),#46) ;
#45=UNCERTAINTY_MEASURE_WITH_UNIT(LENGTH_MEASURE(0.005),#41,'distance_accuracy_value','CONFUSED CURVE UNCERTAINTY') ;
#54=LINE('Line',#51,#53) ;
#66=LINE('Line',#63,#65) ;
#75=LINE('Line',#72,#74) ;
#187=LINE('Line',#184,#186) ;
#201=LINE('Line',#198,#200) ;
#230=LINE('Line',#227,#229) ;
#244=LINE('Line',#241,#243) ;
#273=LINE('Line',#270,#272) ;
#287=LINE('Line',#284,#286) ;
#434=LINE('Line',#431,#433) ;
#439=LINE('Line',#436,#438) ;
#458=LINE('Line',#455,#457) ;
#465=LINE('Line',#462,#464) ;
#501=LINE('Line',#498,#500) ;
#508=LINE('Line',#505,#507) ;
#2=MECHANICAL_CONTEXT(' ',#1,'mechanical') ;
#24=PERSONAL_ADDRESS(' ',' ',' ',' ',' ',' ',' ',' ',' ',' ',' ',' ',(#22),' ') ;
#87=PLANE('Plane',#86) ;
#111=PLANE('Plane',#110) ;
#312=PLANE('Plane',#311) ;
#402=PLANE('Plane',#401) ;
#43=PLANE_ANGLE_MEASURE_WITH_UNIT(PLANE_ANGLE_MEASURE(0.0174532925199),#42) ;
#7=PRODUCT_CATEGORY('part',$) ;
#9=PRODUCT_CATEGORY_RELATIONSHIP(' ',' ',#7,#8) ;
#6=PRODUCT_DEFINITION_FORMATION_WITH_SPECIFIED_SOURCE('',' ',#5,.NOT_KNOWN.) ;
#8=PRODUCT_RELATED_PRODUCT_CATEGORY('detail',$,(#5)) ;
#50=SHAPE_DEFINITION_REPRESENTATION(#40,#49) ;
#57=TRIMMED_CURVE('',#54,(#55),(#56),.T.,.CARTESIAN.) ;
#69=TRIMMED_CURVE('',#66,(#67),(#68),.T.,.CARTESIAN.) ;
#78=TRIMMED_CURVE('',#75,(#76),(#77),.T.,.CARTESIAN.) ;
#93=VERTEX_POINT('',#92) ;
#95=VERTEX_POINT('',#94) ;
#117=VERTEX_POINT('',#116) ;
#119=VERTEX_POINT('',#118) ;
#141=VERTEX_POINT('',#140) ;
#148=VERTEX_POINT('',#147) ;
#189=VERTEX_POINT('',#188) ;
#196=VERTEX_POINT('',#195) ;
#232=VERTEX_POINT('',#231) ;
#239=VERTEX_POINT('',#238) ;
#275=VERTEX_POINT('',#274) ;
#282=VERTEX_POINT('',#281) ;
#318=VERTEX_POINT('',#317) ;
#320=VERTEX_POINT('',#319) ;
#346=VERTEX_POINT('',#345) ;
#348=VERTEX_POINT('',#347) ;
#355=VERTEX_POINT('',#354) ;
#362=VERTEX_POINT('',#361) ;
#412=VERTEX_POINT('',#411) ;
#414=VERTEX_POINT('',#413) ;
#460=VERTEX_POINT('',#459) ;
#467=VERTEX_POINT('',#466) ;
#503=VERTEX_POINT('',#502) ;
#510=VERTEX_POINT('',#509) ;
#41=(LENGTH_UNIT()NAMED_UNIT(*)SI_UNIT(.MILLI.,.METRE.)) ;
#42=(NAMED_UNIT(*)PLANE_ANGLE_UNIT()SI_UNIT($,.RADIAN.)) ;
#44=(NAMED_UNIT(*)SI_UNIT($,.STERADIAN.)SOLID_ANGLE_UNIT()) ;
#46=(GEOMETRIC_REPRESENTATION_CONTEXT(3)GLOBAL_UNCERTAINTY_ASSIGNED_CONTEXT((#45))GLOBAL_UNIT_ASSIGNED_CONTEXT((#41,#42,#44))REPRESENTATION_CONTEXT(' ',' ')) ;
ENDSEC;
END-ISO-10303-21;
